ISO-10303-21;
HEADER;
FILE_DESCRIPTION (( 'STEP AP214' ),
    '1' );
FILE_NAME ('FULLVAC RC1KF4025.STEP',
    '2019-04-24T08:36:17',
    ( '' ),
    ( '' ),
    'SwSTEP 2.0',
    'SolidWorks 2017',
    '' );
FILE_SCHEMA (( 'AUTOMOTIVE_DESIGN' ));
ENDSEC;

DATA;
#1 = EDGE_CURVE ( 'NONE', #138, #138, #2, .T. ) ;
#2 = CIRCLE ( 'NONE', #98, 27.44999999999999900 ) ;
#3 = EDGE_CURVE ( 'NONE', #151, #151, #120, .T. ) ;
#4 = AXIS2_PLACEMENT_3D ( 'NONE', #309, #112, #233 ) ;
#5 = FACE_OUTER_BOUND ( 'NONE', #12, .T. ) ;
#6 = FILL_AREA_STYLE ('',( #203 ) ) ;
#7 = ORIENTED_EDGE ( 'NONE', *, *, #321, .T. ) ;
#8 = PRODUCT_DEFINITION_CONTEXT ( 'detailed design', #190, 'design' ) ;
#9 = AXIS2_PLACEMENT_3D ( 'NONE', #109, #235, #331 ) ;
#10 = ADVANCED_FACE ( 'NONE', ( #55, #223 ), #277, .T. ) ;
#11 = DIRECTION ( 'NONE',  ( 1.000000000000000000, 0.0000000000000000000, 0.0000000000000000000 ) ) ;
#12 = EDGE_LOOP ( 'NONE', ( #104 ) ) ;
#13 = CARTESIAN_POINT ( 'NONE',  ( 31.80000000000000100, 0.0000000000000000000, 11.05000000000000100 ) ) ;
#14 = COLOUR_RGB ( '',0.7450980392156862900, 0.7450980392156862900, 0.7450980392156862900 ) ;
#15 = FACE_BOUND ( 'NONE', #232, .T. ) ;
#16 = CARTESIAN_POINT ( 'NONE',  ( 36.69999999998459800, 0.0000000000000000000, 0.0000000000000000000 ) ) ;
#17 = ORIENTED_EDGE ( 'NONE', *, *, #1, .T. ) ;
#18 = CARTESIAN_POINT ( 'NONE',  ( 31.79999999999759600, 0.0000000000000000000, -12.69999999998987600 ) ) ;
#19 = FACE_OUTER_BOUND ( 'NONE', #153, .T. ) ;
#20 = DIRECTION ( 'NONE',  ( -1.000000000000000000, 0.0000000000000000000, 0.0000000000000000000 ) ) ;
#21 = CARTESIAN_POINT ( 'NONE',  ( 31.80000000000000100, 0.0000000000000000000, 0.0000000000000000000 ) ) ;
#22 = DIRECTION ( 'NONE',  ( -1.000000000000000000, 0.0000000000000000000, 0.0000000000000000000 ) ) ;
#23 = EDGE_LOOP ( 'NONE', ( #169 ) ) ;
#24 = PRODUCT_DEFINITION ( 'UNKNOWN', '', #133, #8 ) ;
#25 = EDGE_CURVE ( 'NONE', #69, #69, #274, .T. ) ;
#26 = FACE_BOUND ( 'NONE', #144, .T. ) ;
#27 = EDGE_CURVE ( 'NONE', #188, #188, #212, .T. ) ;
#28 = AXIS2_PLACEMENT_3D ( 'NONE', #350, #67, #242 ) ;
#29 = ORIENTED_EDGE ( 'NONE', *, *, #234, .F. ) ;
#30 = ADVANCED_FACE ( 'NONE', ( #19, #301 ), #200, .F. ) ;
#31 = ADVANCED_FACE ( 'NONE', ( #193, #266 ), #283, .T. ) ;
#32 = EDGE_LOOP ( 'NONE', ( #184 ) ) ;
#33 = SURFACE_SIDE_STYLE ('',( #148 ) ) ;
#34 = VERTEX_POINT ( 'NONE', #210 ) ;
#35 = CARTESIAN_POINT ( 'NONE',  ( 0.0000000000000000000, 0.0000000000000000000, 0.0000000000000000000 ) ) ;
#36 = EDGE_LOOP ( 'NONE', ( #265 ) ) ;
#37 = DIRECTION ( 'NONE',  ( -1.000000000000000000, 0.0000000000000000000, 0.0000000000000000000 ) ) ;
#38 = PRODUCT ( 'FULLVAC RC1KF4025', 'FULLVAC RC1KF4025', '', ( #338 ) ) ;
#39 = CIRCLE ( 'NONE', #224, 27.45000000000404200 ) ;
#40 =( NAMED_UNIT ( * ) SI_UNIT ( $, .STERADIAN. ) SOLID_ANGLE_UNIT ( ) );
#41 = EDGE_LOOP ( 'NONE', ( #77 ) ) ;
#42 = CARTESIAN_POINT ( 'NONE',  ( 2.540000000000000000, 0.0000000000000000000, 0.0000000000000000000 ) ) ;
#43 = AXIS2_PLACEMENT_3D ( 'NONE', #173, #333, #177 ) ;
#44 = FACE_OUTER_BOUND ( 'NONE', #282, .T. ) ;
#45 = STYLED_ITEM ( 'NONE', ( #74 ), #285 ) ;
#46 = APPLICATION_PROTOCOL_DEFINITION ( 'draft international standard', 'automotive_design', 1998, #186 ) ;
#47 = AXIS2_PLACEMENT_3D ( 'NONE', #318, #154, #245 ) ;
#48 = ORIENTED_EDGE ( 'NONE', *, *, #227, .F. ) ;
#49 = DIRECTION ( 'NONE',  ( 1.000000000000000000, -0.0000000000000000000, -0.0000000000000000000 ) ) ;
#50 = CARTESIAN_POINT ( 'NONE',  ( 2.540000000002200100, 0.0000000000000000000, 0.0000000000000000000 ) ) ;
#51 = EDGE_LOOP ( 'NONE', ( #337 ) ) ;
#52 = FACE_BOUND ( 'NONE', #225, .T. ) ;
#53 =( GEOMETRIC_REPRESENTATION_CONTEXT ( 3 ) GLOBAL_UNCERTAINTY_ASSIGNED_CONTEXT ( ( #254 ) ) GLOBAL_UNIT_ASSIGNED_CONTEXT ( ( #83, #85, #281 ) ) REPRESENTATION_CONTEXT ( 'NONE', 'WORKASPACE' ) );
#54 = ORIENTED_EDGE ( 'NONE', *, *, #130, .T. ) ;
#55 = FACE_OUTER_BOUND ( 'NONE', #32, .T. ) ;
#56 = AXIS2_PLACEMENT_3D ( 'NONE', #142, #180, #90 ) ;
#57 = CONICAL_SURFACE ( 'NONE', #292, 17.40000000001016300, 0.2137059377902295900 ) ;
#58 = VERTEX_POINT ( 'NONE', #62 ) ;
#59 = DIRECTION ( 'NONE',  ( 1.000000000000000000, 0.0000000000000000000, 0.0000000000000000000 ) ) ;
#60 = DIRECTION ( 'NONE',  ( -1.000000000000000000, 0.0000000000000000000, 0.0000000000000000000 ) ) ;
#61 = EDGE_LOOP ( 'NONE', ( #128 ) ) ;
#62 = CARTESIAN_POINT ( 'NONE',  ( 2.540000000002200100, 0.0000000000000000000, 17.40000000001016300 ) ) ;
#63 = AXIS2_PLACEMENT_3D ( 'NONE', #339, #37, #207 ) ;
#64 = DIRECTION ( 'NONE',  ( -1.000000000000000000, 0.0000000000000000000, 0.0000000000000000000 ) ) ;
#65 = CYLINDRICAL_SURFACE ( 'NONE', #28, 20.57499999999999900 ) ;
#66 = CARTESIAN_POINT ( 'NONE',  ( 39.89999999999999900, 0.0000000000000000000, 13.08000000000000000 ) ) ;
#67 = DIRECTION ( 'NONE',  ( 1.000000000000000000, 0.0000000000000000000, 0.0000000000000000000 ) ) ;
#68 = UNCERTAINTY_MEASURE_WITH_UNIT (LENGTH_MEASURE( 1.000000000000000100E-005 ), #269, 'distance_accuracy_value', 'NONE');
#69 = VERTEX_POINT ( 'NONE', #152 ) ;
#70 = CARTESIAN_POINT ( 'NONE',  ( 5.100000000002396000, 0.0000000000000000000, 19.05000000001012900 ) ) ;
#71 = DIRECTION ( 'NONE',  ( -1.000000000000000000, 0.0000000000000000000, 0.0000000000000000000 ) ) ;
#72 = SURFACE_SIDE_STYLE ('',( #182 ) ) ;
#73 = DIRECTION ( 'NONE',  ( 0.0000000000000000000, 0.0000000000000000000, -1.000000000000000000 ) ) ;
#74 = PRESENTATION_STYLE_ASSIGNMENT (( #172 ) ) ;
#75 = VERTEX_POINT ( 'NONE', #89 ) ;
#76 = STYLED_ITEM ( 'NONE', ( #334 ), #117 ) ;
#77 = ORIENTED_EDGE ( 'NONE', *, *, #284, .F. ) ;
#78 = AXIS2_PLACEMENT_3D ( 'NONE', #150, #125, #341 ) ;
#79 = EDGE_LOOP ( 'NONE', ( #246 ) ) ;
#80 = AXIS2_PLACEMENT_3D ( 'NONE', #238, #183, #86 ) ;
#81 = FACE_BOUND ( 'NONE', #41, .T. ) ;
#82 = EDGE_LOOP ( 'NONE', ( #229 ) ) ;
#83 =( LENGTH_UNIT ( ) NAMED_UNIT ( * ) SI_UNIT ( .MILLI., .METRE. ) );
#84 = ADVANCED_FACE ( 'NONE', ( #52, #167 ), #174, .F. ) ;
#85 =( NAMED_UNIT ( * ) PLANE_ANGLE_UNIT ( ) SI_UNIT ( $, .RADIAN. ) );
#86 = DIRECTION ( 'NONE',  ( 0.0000000000000000000, 0.0000000000000000000, 1.000000000000000000 ) ) ;
#87 = CARTESIAN_POINT ( 'NONE',  ( 0.0000000000000000000, -2.437219727497130000E-015, 0.0000000000000000000 ) ) ;
#88 = FACE_OUTER_BOUND ( 'NONE', #198, .T. ) ;
#89 = CARTESIAN_POINT ( 'NONE',  ( 3.200000000015087700, 0.0000000000000000000, -27.45000000000404200 ) ) ;
#90 = DIRECTION ( 'NONE',  ( 0.0000000000000000000, 0.0000000000000000000, 1.000000000000000000 ) ) ;
#91 = PLANE ( 'NONE',  #166 ) ;
#92 = CARTESIAN_POINT ( 'NONE',  ( 2.540000000002200100, 0.0000000000000000000, 0.0000000000000000000 ) ) ;
#93 = PRESENTATION_LAYER_ASSIGNMENT (  '', '', ( #45 ) ) ;
#94 = SURFACE_STYLE_USAGE ( .BOTH. , #72 ) ;
#95 = CARTESIAN_POINT ( 'NONE',  ( 2.540000000000000000, 3.597320452410390200E-016, -9.294399895858840900E-016 ) ) ;
#96 = CARTESIAN_POINT ( 'NONE',  ( 36.69999999998459800, 0.0000000000000000000, 0.0000000000000000000 ) ) ;
#97 = ORIENTED_EDGE ( 'NONE', *, *, #234, .T. ) ;
#98 = AXIS2_PLACEMENT_3D ( 'NONE', #35, #260, #143 ) ;
#99 = EDGE_LOOP ( 'NONE', ( #196 ) ) ;
#100 = ORIENTED_EDGE ( 'NONE', *, *, #304, .T. ) ;
#101 = AXIS2_PLACEMENT_3D ( 'NONE', #147, #11, #110 ) ;
#102 = FACE_BOUND ( 'NONE', #115, .T. ) ;
#103 = ADVANCED_FACE ( 'NONE', ( #268, #342 ), #226, .T. ) ;
#104 = ORIENTED_EDGE ( 'NONE', *, *, #256, .T. ) ;
#105 = ADVANCED_FACE ( 'NONE', ( #194, #44 ), #135, .T. ) ;
#106 = CIRCLE ( 'NONE', #155, 13.08000000000000000 ) ;
#107 = ORIENTED_EDGE ( 'NONE', *, *, #227, .T. ) ;
#108 = AXIS2_PLACEMENT_3D ( 'NONE', #308, #312, #264 ) ;
#109 = CARTESIAN_POINT ( 'NONE',  ( 34.75736835487440100, 0.0000000000000000000, 0.0000000000000000000 ) ) ;
#110 = DIRECTION ( 'NONE',  ( 0.0000000000000000000, 0.0000000000000000000, -1.000000000000000000 ) ) ;
#111 = DIRECTION ( 'NONE',  ( 0.0000000000000000000, 0.0000000000000000000, -1.000000000000000000 ) ) ;
#112 = DIRECTION ( 'NONE',  ( -1.000000000000000000, 0.0000000000000000000, 0.0000000000000000000 ) ) ;
#113 = CARTESIAN_POINT ( 'NONE',  ( 5.099999999999999600, 0.0000000000000000000, -12.69999999999999900 ) ) ;
#114 = DIRECTION ( 'NONE',  ( 0.0000000000000000000, 0.0000000000000000000, 1.000000000000000000 ) ) ;
#115 = EDGE_LOOP ( 'NONE', ( #328 ) ) ;
#116 = CARTESIAN_POINT ( 'NONE',  ( 39.89999999999999900, 0.0000000000000000000, 0.0000000000000000000 ) ) ;
#117 = ADVANCED_BREP_SHAPE_REPRESENTATION ( 'FULLVAC RC1KF4025', ( #285, #335 ), #195 ) ;
#118 = CARTESIAN_POINT ( 'NONE',  ( 37.35999999999999900, 0.0000000000000000000, 11.05000000000000100 ) ) ;
#119 = DIRECTION ( 'NONE',  ( 0.0000000000000000000, 0.0000000000000000000, -1.000000000000000000 ) ) ;
#120 = CIRCLE ( 'NONE', #287, 20.57499999999999900 ) ;
#121 = CARTESIAN_POINT ( 'NONE',  ( 2.540000000000000000, 0.0000000000000000000, -20.57499999999999900 ) ) ;
#122 = FACE_BOUND ( 'NONE', #255, .T. ) ;
#123 = DIRECTION ( 'NONE',  ( -1.000000000000000000, -0.0000000000000000000, -0.0000000000000000000 ) ) ;
#124 = DIRECTION ( 'NONE',  ( 1.000000000000000000, 0.0000000000000000000, 0.0000000000000000000 ) ) ;
#125 = DIRECTION ( 'NONE',  ( -1.000000000000000000, 0.0000000000000000000, 0.0000000000000000000 ) ) ;
#126 = DIRECTION ( 'NONE',  ( 0.0000000000000000000, 0.0000000000000000000, -1.000000000000000000 ) ) ;
#127 = AXIS2_PLACEMENT_3D ( 'NONE', #87, #176, #211 ) ;
#128 = ORIENTED_EDGE ( 'NONE', *, *, #252, .F. ) ;
#129 = FACE_OUTER_BOUND ( 'NONE', #171, .T. ) ;
#130 = EDGE_CURVE ( 'NONE', #324, #324, #259, .T. ) ;
#131 = VERTEX_POINT ( 'NONE', #149 ) ;
#132 = MECHANICAL_DESIGN_GEOMETRIC_PRESENTATION_REPRESENTATION (  '', ( #76 ), #220 ) ;
#133 = PRODUCT_DEFINITION_FORMATION_WITH_SPECIFIED_SOURCE ( 'ANY', '', #38, .NOT_KNOWN. ) ;
#134 = ORIENTED_EDGE ( 'NONE', *, *, #3, .F. ) ;
#135 = CYLINDRICAL_SURFACE ( 'NONE', #101, 27.44999999999999900 ) ;
#136 = ADVANCED_FACE ( 'NONE', ( #26, #170 ), #163, .T. ) ;
#137 = FACE_OUTER_BOUND ( 'NONE', #291, .T. ) ;
#138 = VERTEX_POINT ( 'NONE', #146 ) ;
#139 = ORIENTED_EDGE ( 'NONE', *, *, #130, .F. ) ;
#140 = CARTESIAN_POINT ( 'NONE',  ( 31.79999999999759600, 0.0000000000000000000, 0.0000000000000000000 ) ) ;
#141 = ADVANCED_FACE ( 'NONE', ( #288, #88 ), #296, .T. ) ;
#142 = CARTESIAN_POINT ( 'NONE',  ( 5.100000000002396000, 0.0000000000000000000, 0.0000000000000000000 ) ) ;
#143 = DIRECTION ( 'NONE',  ( 0.0000000000000000000, 0.0000000000000000000, -1.000000000000000000 ) ) ;
#144 = EDGE_LOOP ( 'NONE', ( #100 ) ) ;
#145 = AXIS2_PLACEMENT_3D ( 'NONE', #261, #59, #111 ) ;
#146 = CARTESIAN_POINT ( 'NONE',  ( 0.0000000000000000000, 0.0000000000000000000, -27.44999999999999900 ) ) ;
#147 = CARTESIAN_POINT ( 'NONE',  ( 0.0000000000000000000, 0.0000000000000000000, 0.0000000000000000000 ) ) ;
#148 = SURFACE_STYLE_FILL_AREA ( #6 ) ;
#149 = CARTESIAN_POINT ( 'NONE',  ( 36.69999999998459800, 0.0000000000000000000, -19.95000000000412400 ) ) ;
#150 = CARTESIAN_POINT ( 'NONE',  ( 37.35999999999999900, 0.0000000000000000000, 0.0000000000000000000 ) ) ;
#151 = VERTEX_POINT ( 'NONE', #121 ) ;
#152 = CARTESIAN_POINT ( 'NONE',  ( 39.89999999999999900, 0.0000000000000000000, 19.94999999999999900 ) ) ;
#153 = EDGE_LOOP ( 'NONE', ( #325 ) ) ;
#154 = DIRECTION ( 'NONE',  ( 1.000000000000000000, -0.0000000000000000000, 0.0000000000000000000 ) ) ;
#155 = AXIS2_PLACEMENT_3D ( 'NONE', #279, #236, #257 ) ;
#156 =( NAMED_UNIT ( * ) SI_UNIT ( $, .STERADIAN. ) SOLID_ANGLE_UNIT ( ) );
#157 = DIRECTION ( 'NONE',  ( 1.000000000000000000, -0.0000000000000000000, 0.0000000000000000000 ) ) ;
#158 = AXIS2_PLACEMENT_3D ( 'NONE', #159, #123, #126 ) ;
#159 = CARTESIAN_POINT ( 'NONE',  ( 0.0000000000000000000, 0.0000000000000000000, 0.0000000000000000000 ) ) ;
#160 = CARTESIAN_POINT ( 'NONE',  ( 3.200000000015087700, 0.0000000000000000000, 0.0000000000000000000 ) ) ;
#161 = ORIENTED_EDGE ( 'NONE', *, *, #25, .F. ) ;
#162 = AXIS2_PLACEMENT_3D ( 'NONE', #116, #64, #332 ) ;
#163 = CONICAL_SURFACE ( 'NONE', #108, 19.05000000001012900, 0.2334899949522070100 ) ;
#164 = FACE_OUTER_BOUND ( 'NONE', #61, .T. ) ;
#165 = ORIENTED_EDGE ( 'NONE', *, *, #273, .T. ) ;
#166 = AXIS2_PLACEMENT_3D ( 'NONE', #95, #243, #349 ) ;
#167 = FACE_OUTER_BOUND ( 'NONE', #352, .T. ) ;
#168 = ADVANCED_FACE ( 'NONE', ( #322, #137 ), #65, .F. ) ;
#169 = ORIENTED_EDGE ( 'NONE', *, *, #336, .T. ) ;
#170 = FACE_OUTER_BOUND ( 'NONE', #99, .T. ) ;
#171 = EDGE_LOOP ( 'NONE', ( #107 ) ) ;
#172 = SURFACE_STYLE_USAGE ( .BOTH. , #33 ) ;
#173 = CARTESIAN_POINT ( 'NONE',  ( 3.200000000015087700, 0.0000000000000000000, 0.0000000000000000000 ) ) ;
#174 = PLANE ( 'NONE',  #127 ) ;
#175 = EDGE_LOOP ( 'NONE', ( #165 ) ) ;
#176 = DIRECTION ( 'NONE',  ( 1.000000000000000000, -0.0000000000000000000, 0.0000000000000000000 ) ) ;
#177 = DIRECTION ( 'NONE',  ( 0.0000000000000000000, -1.000000000000000000, 0.0000000000000000000 ) ) ;
#178 = EDGE_CURVE ( 'NONE', #354, #354, #215, .T. ) ;
#179 =( LENGTH_UNIT ( ) NAMED_UNIT ( * ) SI_UNIT ( .MILLI., .METRE. ) );
#180 = DIRECTION ( 'NONE',  ( 1.000000000000000000, -0.0000000000000000000, -0.0000000000000000000 ) ) ;
#181 = FACE_OUTER_BOUND ( 'NONE', #175, .T. ) ;
#182 = SURFACE_STYLE_FILL_AREA ( #244 ) ;
#183 = DIRECTION ( 'NONE',  ( -1.000000000000000000, 0.0000000000000000000, 0.0000000000000000000 ) ) ;
#184 = ORIENTED_EDGE ( 'NONE', *, *, #25, .T. ) ;
#185 = CARTESIAN_POINT ( 'NONE',  ( 39.89999999999999900, 0.0000000000000000000, 0.0000000000000000000 ) ) ;
#186 = APPLICATION_CONTEXT ( 'automotive_design' ) ;
#187 = DIRECTION ( 'NONE',  ( 0.0000000000000000000, 0.0000000000000000000, 1.000000000000000000 ) ) ;
#188 = VERTEX_POINT ( 'NONE', #70 ) ;
#189 = EDGE_LOOP ( 'NONE', ( #319 ) ) ;
#190 = APPLICATION_CONTEXT ( 'automotive_design' ) ;
#191 = UNCERTAINTY_MEASURE_WITH_UNIT (LENGTH_MEASURE( 1.000000000000000100E-005 ), #179, 'distance_accuracy_value', 'NONE');
#192 = ORIENTED_EDGE ( 'NONE', *, *, #27, .F. ) ;
#193 = FACE_BOUND ( 'NONE', #237, .T. ) ;
#194 = FACE_OUTER_BOUND ( 'NONE', #272, .T. ) ;
#195 =( GEOMETRIC_REPRESENTATION_CONTEXT ( 3 ) GLOBAL_UNCERTAINTY_ASSIGNED_CONTEXT ( ( #68 ) ) GLOBAL_UNIT_ASSIGNED_CONTEXT ( ( #269, #240, #156 ) ) REPRESENTATION_CONTEXT ( 'NONE', 'WORKASPACE' ) );
#196 = ORIENTED_EDGE ( 'NONE', *, *, #27, .T. ) ;
#197 = AXIS2_PLACEMENT_3D ( 'NONE', #185, #20, #247 ) ;
#198 = EDGE_LOOP ( 'NONE', ( #161 ) ) ;
#199 = PRESENTATION_LAYER_ASSIGNMENT (  '', '', ( #76 ) ) ;
#200 = CYLINDRICAL_SURFACE ( 'NONE', #162, 13.08000000000000000 ) ;
#201 = EDGE_LOOP ( 'NONE', ( #97 ) ) ;
#202 = ADVANCED_FACE ( 'NONE', ( #102, #353 ), #348, .T. ) ;
#203 = FILL_AREA_STYLE_COLOUR ( '', #14 ) ;
#204 = CIRCLE ( 'NONE', #158, 20.57499999999999900 ) ;
#205 = SHAPE_DEFINITION_REPRESENTATION ( #217, #117 ) ;
#206 = VERTEX_POINT ( 'NONE', #347 ) ;
#207 = DIRECTION ( 'NONE',  ( 0.0000000000000000000, 0.0000000000000000000, 1.000000000000000000 ) ) ;
#208 =( NAMED_UNIT ( * ) PLANE_ANGLE_UNIT ( ) SI_UNIT ( $, .RADIAN. ) );
#209 = ORIENTED_EDGE ( 'NONE', *, *, #304, .F. ) ;
#210 = CARTESIAN_POINT ( 'NONE',  ( 0.0000000000000000000, 0.0000000000000000000, -20.57499999999999900 ) ) ;
#211 = DIRECTION ( 'NONE',  ( 0.0000000000000000000, 0.0000000000000000000, -1.000000000000000000 ) ) ;
#212 = CIRCLE ( 'NONE', #56, 19.05000000001012900 ) ;
#213 = CARTESIAN_POINT ( 'NONE',  ( 5.099999999984938800, -20.35910346561506400, 0.0000000000000000000 ) ) ;
#214 = DIRECTION ( 'NONE',  ( 0.0000000000000000000, 0.0000000000000000000, -1.000000000000000000 ) ) ;
#215 = CIRCLE ( 'NONE', #197, 13.08000000000000000 ) ;
#216 = FACE_OUTER_BOUND ( 'NONE', #276, .T. ) ;
#217 = PRODUCT_DEFINITION_SHAPE ( 'NONE', 'NONE',  #24 ) ;
#218 = DIRECTION ( 'NONE',  ( 0.0000000000000000000, 0.0000000000000000000, 1.000000000000000000 ) ) ;
#219 = AXIS2_PLACEMENT_3D ( 'NONE', #92, #22, #187 ) ;
#220 =( GEOMETRIC_REPRESENTATION_CONTEXT ( 3 ) GLOBAL_UNCERTAINTY_ASSIGNED_CONTEXT ( ( #191 ) ) GLOBAL_UNIT_ASSIGNED_CONTEXT ( ( #179, #208, #40 ) ) REPRESENTATION_CONTEXT ( 'NONE', 'WORKASPACE' ) );
#221 = DIRECTION ( 'NONE',  ( 0.0000000000000000000, 0.0000000000000000000, -1.000000000000000000 ) ) ;
#222 = CLOSED_SHELL ( 'NONE', ( #136, #103, #31, #275, #326, #10, #105, #141, #84, #30, #168, #202, #228, #307, #251 ) ) ;
#223 = FACE_OUTER_BOUND ( 'NONE', #51, .T. ) ;
#224 = AXIS2_PLACEMENT_3D ( 'NONE', #160, #49, #73 ) ;
#225 = EDGE_LOOP ( 'NONE', ( #29 ) ) ;
#226 = CYLINDRICAL_SURFACE ( 'NONE', #145, 12.69999999999999900 ) ;
#227 = EDGE_CURVE ( 'NONE', #58, #58, #298, .T. ) ;
#228 = ADVANCED_FACE ( 'NONE', ( #343, #253 ), #91, .F. ) ;
#229 = ORIENTED_EDGE ( 'NONE', *, *, #178, .T. ) ;
#230 = CIRCLE ( 'NONE', #9, 12.69999999999999900 ) ;
#231 = CONICAL_SURFACE ( 'NONE', #43, 27.45000000000404200, 1.308996939000000000 ) ;
#232 = EDGE_LOOP ( 'NONE', ( #327 ) ) ;
#233 = DIRECTION ( 'NONE',  ( 0.0000000000000000000, 0.0000000000000000000, 1.000000000000000000 ) ) ;
#234 = EDGE_CURVE ( 'NONE', #34, #34, #204, .T. ) ;
#235 = DIRECTION ( 'NONE',  ( -1.000000000000000000, -0.0000000000000000000, -0.0000000000000000000 ) ) ;
#236 = DIRECTION ( 'NONE',  ( 1.000000000000000000, -0.0000000000000000000, -0.0000000000000000000 ) ) ;
#237 = EDGE_LOOP ( 'NONE', ( #192 ) ) ;
#238 = CARTESIAN_POINT ( 'NONE',  ( 39.89999999999999900, 0.0000000000000000000, 0.0000000000000000000 ) ) ;
#239 = CIRCLE ( 'NONE', #323, 19.95000000000412400 ) ;
#240 =( NAMED_UNIT ( * ) PLANE_ANGLE_UNIT ( ) SI_UNIT ( $, .RADIAN. ) );
#241 = AXIS2_PLACEMENT_3D ( 'NONE', #286, #311, #289 ) ;
#242 = DIRECTION ( 'NONE',  ( 0.0000000000000000000, 0.0000000000000000000, -1.000000000000000000 ) ) ;
#243 = DIRECTION ( 'NONE',  ( 1.000000000000000000, -0.0000000000000000000, 0.0000000000000000000 ) ) ;
#244 = FILL_AREA_STYLE ('',( #271 ) ) ;
#245 = DIRECTION ( 'NONE',  ( 0.0000000000000000000, 0.0000000000000000000, -1.000000000000000000 ) ) ;
#246 = ORIENTED_EDGE ( 'NONE', *, *, #321, .F. ) ;
#247 = DIRECTION ( 'NONE',  ( 0.0000000000000000000, 0.0000000000000000000, 1.000000000000000000 ) ) ;
#248 = APPLICATION_PROTOCOL_DEFINITION ( 'draft international standard', 'automotive_design', 1998, #190 ) ;
#249 = CIRCLE ( 'NONE', #78, 11.05000000000000100 ) ;
#250 = AXIS2_PLACEMENT_3D ( 'NONE', #140, #60, #262 ) ;
#251 = ADVANCED_FACE ( 'NONE', ( #122, #129 ), #57, .F. ) ;
#252 = EDGE_CURVE ( 'NONE', #258, #258, #249, .T. ) ;
#253 = FACE_OUTER_BOUND ( 'NONE', #36, .T. ) ;
#254 = UNCERTAINTY_MEASURE_WITH_UNIT (LENGTH_MEASURE( 1.000000000000000100E-005 ), #83, 'distance_accuracy_value', 'NONE');
#255 = EDGE_LOOP ( 'NONE', ( #54 ) ) ;
#256 = EDGE_CURVE ( 'NONE', #75, #75, #39, .T. ) ;
#257 = DIRECTION ( 'NONE',  ( 0.0000000000000000000, 0.0000000000000000000, 1.000000000000000000 ) ) ;
#258 = VERTEX_POINT ( 'NONE', #118 ) ;
#259 = CIRCLE ( 'NONE', #280, 11.05000000000000100 ) ;
#260 = DIRECTION ( 'NONE',  ( 1.000000000000000000, 0.0000000000000000000, 0.0000000000000000000 ) ) ;
#261 = CARTESIAN_POINT ( 'NONE',  ( 0.0000000000000000000, 0.0000000000000000000, 0.0000000000000000000 ) ) ;
#262 = DIRECTION ( 'NONE',  ( 0.0000000000000000000, 0.0000000000000000000, -1.000000000000000000 ) ) ;
#263 = DIRECTION ( 'NONE',  ( 0.0000000000000000000, 0.0000000000000000000, -1.000000000000000000 ) ) ;
#264 = DIRECTION ( 'NONE',  ( 0.0000000000000000000, 0.0000000000000000000, 1.000000000000000000 ) ) ;
#265 = ORIENTED_EDGE ( 'NONE', *, *, #3, .T. ) ;
#266 = FACE_OUTER_BOUND ( 'NONE', #23, .T. ) ;
#267 = CARTESIAN_POINT ( 'NONE',  ( 0.0000000000000000000, 0.0000000000000000000, 0.0000000000000000000 ) ) ;
#268 = FACE_OUTER_BOUND ( 'NONE', #300, .T. ) ;
#269 =( LENGTH_UNIT ( ) NAMED_UNIT ( * ) SI_UNIT ( .MILLI., .METRE. ) );
#270 = CARTESIAN_POINT ( 'NONE',  ( 39.89999999999999900, -2.913971193241879800E-016, -7.124026915581379500E-016 ) ) ;
#271 = FILL_AREA_STYLE_COLOUR ( '', #344 ) ;
#272 = EDGE_LOOP ( 'NONE', ( #17 ) ) ;
#273 = EDGE_CURVE ( 'NONE', #131, #131, #239, .T. ) ;
#274 = CIRCLE ( 'NONE', #63, 19.94999999999999900 ) ;
#275 = ADVANCED_FACE ( 'NONE', ( #81, #181 ), #305, .T. ) ;
#276 = EDGE_LOOP ( 'NONE', ( #139 ) ) ;
#277 = CYLINDRICAL_SURFACE ( 'NONE', #80, 19.94999999999999900 ) ;
#278 = CYLINDRICAL_SURFACE ( 'NONE', #4, 11.05000000000000100 ) ;
#279 = CARTESIAN_POINT ( 'NONE',  ( 37.35999999999999900, 0.0000000000000000000, 0.0000000000000000000 ) ) ;
#280 = AXIS2_PLACEMENT_3D ( 'NONE', #21, #293, #218 ) ;
#281 =( NAMED_UNIT ( * ) SI_UNIT ( $, .STERADIAN. ) SOLID_ANGLE_UNIT ( ) );
#282 = EDGE_LOOP ( 'NONE', ( #330 ) ) ;
#283 = PLANE ( 'NONE',  #306 ) ;
#284 = EDGE_CURVE ( 'NONE', #345, #345, #230, .T. ) ;
#285 = MANIFOLD_SOLID_BREP ( '\X2\5BE69AD4\X0\2', #222 ) ;
#286 = CARTESIAN_POINT ( 'NONE',  ( 5.099999999984938800, -1.500899182287408300E-017, 0.0000000000000000000 ) ) ;
#287 = AXIS2_PLACEMENT_3D ( 'NONE', #42, #314, #119 ) ;
#288 = FACE_BOUND ( 'NONE', #82, .T. ) ;
#289 = DIRECTION ( 'NONE',  ( 0.0000000000000000000, -1.000000000000000000, 0.0000000000000000000 ) ) ;
#290 = CIRCLE ( 'NONE', #250, 12.69999999998987600 ) ;
#291 = EDGE_LOOP ( 'NONE', ( #134 ) ) ;
#292 = AXIS2_PLACEMENT_3D ( 'NONE', #50, #71, #294 ) ;
#293 = DIRECTION ( 'NONE',  ( 1.000000000000000000, -0.0000000000000000000, -0.0000000000000000000 ) ) ;
#294 = DIRECTION ( 'NONE',  ( 0.0000000000000000000, 0.0000000000000000000, 1.000000000000000000 ) ) ;
#295 = DIRECTION ( 'NONE',  ( -1.000000000000000000, -0.0000000000000000000, -0.0000000000000000000 ) ) ;
#296 = PLANE ( 'NONE',  #302 ) ;
#297 = ORIENTED_EDGE ( 'NONE', *, *, #1, .F. ) ;
#298 = CIRCLE ( 'NONE', #219, 17.40000000001016300 ) ;
#299 = CIRCLE ( 'NONE', #241, 20.35910346561506400 ) ;
#300 = EDGE_LOOP ( 'NONE', ( #209 ) ) ;
#301 = FACE_OUTER_BOUND ( 'NONE', #79, .T. ) ;
#302 = AXIS2_PLACEMENT_3D ( 'NONE', #270, #157, #221 ) ;
#303 = EDGE_LOOP ( 'NONE', ( #48 ) ) ;
#304 = EDGE_CURVE ( 'NONE', #317, #317, #290, .T. ) ;
#305 = CONICAL_SURFACE ( 'NONE', #346, 19.95000000000412400, 1.308996939000000900 ) ;
#306 = AXIS2_PLACEMENT_3D ( 'NONE', #113, #310, #263 ) ;
#307 = ADVANCED_FACE ( 'NONE', ( #164, #216 ), #278, .F. ) ;
#308 = CARTESIAN_POINT ( 'NONE',  ( 5.100000000002388800, 0.0000000000000000000, 0.0000000000000000000 ) ) ;
#309 = CARTESIAN_POINT ( 'NONE',  ( 39.89999999999999900, 0.0000000000000000000, 0.0000000000000000000 ) ) ;
#310 = DIRECTION ( 'NONE',  ( 1.000000000000000000, -0.0000000000000000000, 0.0000000000000000000 ) ) ;
#311 = DIRECTION ( 'NONE',  ( 1.000000000000000000, -7.899469380585390500E-018, -0.0000000000000000000 ) ) ;
#312 = DIRECTION ( 'NONE',  ( -1.000000000000000000, 0.0000000000000000000, 0.0000000000000000000 ) ) ;
#313 = DIRECTION ( 'NONE',  ( 1.000000000000000000, 0.0000000000000000000, 0.0000000000000000000 ) ) ;
#314 = DIRECTION ( 'NONE',  ( -1.000000000000000000, -0.0000000000000000000, -0.0000000000000000000 ) ) ;
#315 = MECHANICAL_DESIGN_GEOMETRIC_PRESENTATION_REPRESENTATION (  '', ( #45 ), #53 ) ;
#316 = PRODUCT_RELATED_PRODUCT_CATEGORY ( 'part', '', ( #38 ) ) ;
#317 = VERTEX_POINT ( 'NONE', #18 ) ;
#318 = CARTESIAN_POINT ( 'NONE',  ( 37.35999999999999900, 0.0000000000000000000, 1.334865011070619900E-016 ) ) ;
#319 = ORIENTED_EDGE ( 'NONE', *, *, #284, .T. ) ;
#320 = DIRECTION ( 'NONE',  ( 0.0000000000000000000, 0.0000000000000000000, -1.000000000000000000 ) ) ;
#321 = EDGE_CURVE ( 'NONE', #206, #206, #106, .T. ) ;
#322 = FACE_OUTER_BOUND ( 'NONE', #201, .T. ) ;
#323 = AXIS2_PLACEMENT_3D ( 'NONE', #16, #295, #320 ) ;
#324 = VERTEX_POINT ( 'NONE', #13 ) ;
#325 = ORIENTED_EDGE ( 'NONE', *, *, #178, .F. ) ;
#326 = ADVANCED_FACE ( 'NONE', ( #15, #5 ), #231, .T. ) ;
#327 = ORIENTED_EDGE ( 'NONE', *, *, #336, .F. ) ;
#328 = ORIENTED_EDGE ( 'NONE', *, *, #252, .T. ) ;
#329 = VERTEX_POINT ( 'NONE', #213 ) ;
#330 = ORIENTED_EDGE ( 'NONE', *, *, #256, .F. ) ;
#331 = DIRECTION ( 'NONE',  ( 0.0000000000000000000, 0.0000000000000000000, -1.000000000000000000 ) ) ;
#332 = DIRECTION ( 'NONE',  ( 0.0000000000000000000, 0.0000000000000000000, 1.000000000000000000 ) ) ;
#333 = DIRECTION ( 'NONE',  ( -1.000000000000000000, 7.899469380585390500E-018, 0.0000000000000000000 ) ) ;
#334 = PRESENTATION_STYLE_ASSIGNMENT (( #94 ) ) ;
#335 = AXIS2_PLACEMENT_3D ( 'NONE', #267, #114, #313 ) ;
#336 = EDGE_CURVE ( 'NONE', #329, #329, #299, .T. ) ;
#337 = ORIENTED_EDGE ( 'NONE', *, *, #273, .F. ) ;
#338 = PRODUCT_CONTEXT ( 'NONE', #186, 'mechanical' ) ;
#339 = CARTESIAN_POINT ( 'NONE',  ( 39.89999999999999900, 0.0000000000000000000, 0.0000000000000000000 ) ) ;
#340 = CARTESIAN_POINT ( 'NONE',  ( 34.75736835487440100, 0.0000000000000000000, -12.69999999999999900 ) ) ;
#341 = DIRECTION ( 'NONE',  ( 0.0000000000000000000, 0.0000000000000000000, 1.000000000000000000 ) ) ;
#342 = FACE_OUTER_BOUND ( 'NONE', #189, .T. ) ;
#343 = FACE_BOUND ( 'NONE', #303, .T. ) ;
#344 = COLOUR_RGB ( '',0.7450980392156862900, 0.7450980392156862900, 0.7450980392156862900 ) ;
#345 = VERTEX_POINT ( 'NONE', #340 ) ;
#346 = AXIS2_PLACEMENT_3D ( 'NONE', #96, #124, #214 ) ;
#347 = CARTESIAN_POINT ( 'NONE',  ( 37.35999999999999900, 0.0000000000000000000, 13.08000000000000000 ) ) ;
#348 = PLANE ( 'NONE',  #47 ) ;
#349 = DIRECTION ( 'NONE',  ( 0.0000000000000000000, 0.0000000000000000000, -1.000000000000000000 ) ) ;
#350 = CARTESIAN_POINT ( 'NONE',  ( 0.0000000000000000000, 0.0000000000000000000, 0.0000000000000000000 ) ) ;
#351 = EDGE_LOOP ( 'NONE', ( #7 ) ) ;
#352 = EDGE_LOOP ( 'NONE', ( #297 ) ) ;
#353 = FACE_OUTER_BOUND ( 'NONE', #351, .T. ) ;
#354 = VERTEX_POINT ( 'NONE', #66 ) ;
ENDSEC;
END-ISO-10303-21;
